  0
SECTION
  2
HEADER
  9
$ACADVER
  1
AC1015
  9
$ACADMAINTVER
 70
     6
  9
$DWGCODEPAGE
  3
ANSI_1254
  9
$INSBASE
 10
0.0
 20
0.0
 30
0.0
  9
$EXTMIN
 10
0.0
 20
0.0
 30
0.0
  9
$EXTMAX
 10
279.4
 20
215.9
 30
0.0
  9
$LIMMIN
 10
0.0
 20
0.0
  9
$LIMMAX
 10
279.4
 20
215.9
  9
$ORTHOMODE
 70
     0
  9
$REGENMODE
 70
     1
  9
$FILLMODE
 70
     1
  9
$QTEXTMODE
 70
     0
  9
$MIRRTEXT
 70
     1
  9
$LTSCALE
 40
1.0
  9
$ATTMODE
 70
     1
  9
$TEXTSIZE
 40
3.5
  9
$TRACEWID
 40
1.0
  9
$TEXTSTYLE
  7
Standard
  9
$CLAYER
  8
0
  9
$CELTYPE
  6
ByLayer
  9
$CECOLOR
 62
   256
  9
$CELTSCALE
 40
1.0
  9
$DISPSILH
 70
     0
  9
$DIMSCALE
 40
1.0
  9
$DIMASZ
 40
3.5
  9
$DIMEXO
 40
1.0
  9
$DIMDLI
 40
3.75
  9
$DIMRND
 40
0.0
  9
$DIMDLE
 40
0.0
  9
$DIMEXE
 40
1.0
  9
$DIMTP
 40
0.0
  9
$DIMTM
 40
0.0
  9
$DIMTXT
 40
3.5
  9
$DIMCEN
 40
2.5
  9
$DIMTSZ
 40
0.0
  9
$DIMTOL
 70
     0
  9
$DIMLIM
 70
     0
  9
$DIMTIH
 70
     1
  9
$DIMTOH
 70
     1
  9
$DIMSE1
 70
     0
  9
$DIMSE2
 70
     0
  9
$DIMTAD
 70
     1
  9
$DIMZIN
 70
     0
  9
$DIMBLK
  1

  9
$DIMASO
 70
     1
  9
$DIMSHO
 70
     1
  9
$DIMPOST
  1

  9
$DIMAPOST
  1

  9
$DIMALT
 70
     0
  9
$DIMALTD
 70
     3
  9
$DIMALTF
 40
0.0393700787
  9
$DIMLFAC
 40
1.0
  9
$DIMTOFL
 70
     1
  9
$DIMTVP
 40
0.0
  9
$DIMTIX
 70
     0
  9
$DIMSOXD
 70
     0
  9
$DIMSAH
 70
     0
  9
$DIMBLK1
  1

  9
$DIMBLK2
  1

  9
$DIMSTYLE
  2
ISO-25
  9
$DIMCLRD
 70
     0
  9
$DIMCLRE
 70
     0
  9
$DIMCLRT
 70
     0
  9
$DIMTFAC
 40
1.0
  9
$DIMGAP
 40
1.524
  9
$DIMJUST
 70
     0
  9
$DIMSD1
 70
     0
  9
$DIMSD2
 70
     0
  9
$DIMTOLJ
 70
     0
  9
$DIMTZIN
 70
     0
  9
$DIMALTZ
 70
     0
  9
$DIMALTTZ
 70
     0
  9
$DIMUPT
 70
     0
  9
$DIMDEC
 70
     2
  9
$DIMTDEC
 70
     2
  9
$DIMALTU
 70
     2
  9
$DIMALTTD
 70
     3
  9
$DIMTXSTY
  7
Standard
  9
$DIMAUNIT
 70
     0
  9
$DIMADEC
 70
     2
  9
$DIMALTRND
 40
0.0
  9
$DIMAZIN
 70
     0
  9
$DIMDSEP
 70
    44
  9
$DIMATFIT
 70
     3
  9
$DIMFRAC
 70
     0
  9
$DIMLDRBLK
  1

  9
$DIMLUNIT
 70
     2
  9
$DIMLWD
 70
    -2
  9
$DIMLWE
 70
    -2
  9
$DIMTMOVE
 70
     0
  9
$LUNITS
 70
     2
  9
$LUPREC
 70
     2
  9
$SKETCHINC
 40
1.0
  9
$FILLETRAD
 40
10.0
  9
$AUNITS
 70
     0
  9
$AUPREC
 70
     2
  9
$MENU
  1
.
  9
$ELEVATION
 40
0.0
  9
$PELEVATION
 40
0.0
  9
$THICKNESS
 40
0.0
  9
$LIMCHECK
 70
     0
  9
$CHAMFERA
 40
0.0
  9
$CHAMFERB
 40
0.0
  9
$CHAMFERC
 40
0.0
  9
$CHAMFERD
 40
0.0
  9
$SKPOLY
 70
     0
  9
$TDCREATE
 40
2458985.698776169
  9
$TDUCREATE
 40
2458985.573776169
  9
$TDUPDATE
 40
2458985.69877684
  9
$TDUUPDATE
 40
2458985.57377684
  9
$TDINDWG
 40
0.0000000116
  9
$TDUSRTIMER
 40
0.0000000116
  9
$USRTIMER
 70
     1
  9
$ANGBASE
 50
0.0
  9
$ANGDIR
 70
     0
  9
$PDMODE
 70
     0
  9
$PDSIZE
 40
-1.0
  9
$PLINEWID
 40
0.0
  9
$SPLFRAME
 70
     0
  9
$SPLINETYPE
 70
     6
  9
$SPLINESEGS
 70
     8
  9
$HANDSEED
  5
EE
  9
$SURFTAB1
 70
     6
  9
$SURFTAB2
 70
     6
  9
$SURFTYPE
 70
     6
  9
$SURFU
 70
     6
  9
$SURFV
 70
     6
  9
$UCSBASE
  2

  9
$UCSNAME
  2

  9
$UCSORG
 10
0.0
 20
0.0
 30
0.0
  9
$UCSXDIR
 10
1.0
 20
0.0
 30
0.0
  9
$UCSYDIR
 10
0.0
 20
1.0
 30
0.0
  9
$UCSORTHOREF
  2

  9
$UCSORTHOVIEW
 70
     0
  9
$UCSORGTOP
 10
0.0
 20
0.0
 30
0.0
  9
$UCSORGBOTTOM
 10
0.0
 20
0.0
 30
0.0
  9
$UCSORGLEFT
 10
0.0
 20
0.0
 30
0.0
  9
$UCSORGRIGHT
 10
0.0
 20
0.0
 30
0.0
  9
$UCSORGFRONT
 10
0.0
 20
0.0
 30
0.0
  9
$UCSORGBACK
 10
0.0
 20
0.0
 30
0.0
  9
$PUCSBASE
  2

  9
$PUCSNAME
  2

  9
$PUCSORG
 10
0.0
 20
0.0
 30
0.0
  9
$PUCSXDIR
 10
1.0
 20
0.0
 30
0.0
  9
$PUCSYDIR
 10
0.0
 20
1.0
 30
0.0
  9
$PUCSORTHOREF
  2

  9
$PUCSORTHOVIEW
 70
     0
  9
$PUCSORGTOP
 10
0.0
 20
0.0
 30
0.0
  9
$PUCSORGBOTTOM
 10
0.0
 20
0.0
 30
0.0
  9
$PUCSORGLEFT
 10
0.0
 20
0.0
 30
0.0
  9
$PUCSORGRIGHT
 10
0.0
 20
0.0
 30
0.0
  9
$PUCSORGFRONT
 10
0.0
 20
0.0
 30
0.0
  9
$PUCSORGBACK
 10
0.0
 20
0.0
 30
0.0
  9
$USERI1
 70
     0
  9
$USERI2
 70
     0
  9
$USERI3
 70
     0
  9
$USERI4
 70
     0
  9
$USERI5
 70
     0
  9
$USERR1
 40
0.0
  9
$USERR2
 40
0.0
  9
$USERR3
 40
0.0
  9
$USERR4
 40
0.0
  9
$USERR5
 40
0.0
  9
$WORLDVIEW
 70
     1
  9
$SHADEDGE
 70
     3
  9
$SHADEDIF
 70
    70
  9
$TILEMODE
 70
     1
  9
$MAXACTVP
 70
    64
  9
$PINSBASE
 10
0.0
 20
0.0
 30
0.0
  9
$PLIMCHECK
 70
     0
  9
$PEXTMIN
 10
1.0000000000E+20
 20
1.0000000000E+20
 30
1.0000000000E+20
  9
$PEXTMAX
 10
-1.0000000000E+20
 20
-1.0000000000E+20
 30
-1.0000000000E+20
  9
$PLIMMIN
 10
0.0
 20
0.0
  9
$PLIMMAX
 10
420.0
 20
297.0
  9
$UNITMODE
 70
     0
  9
$VISRETAIN
 70
     1
  9
$PLINEGEN
 70
     0
  9
$PSLTSCALE
 70
     1
  9
$TREEDEPTH
 70
  3020
  9
$CMLSTYLE
  2
Standard
  9
$CMLJUST
 70
     0
  9
$CMLSCALE
 40
20.0
  9
$PROXYGRAPHICS
 70
     1
  9
$MEASUREMENT
 70
     1
  9
$CELWEIGHT
370
    -1
  9
$ENDCAPS
280
     0
  9
$JOINSTYLE
280
     0
  9
$LWDISPLAY
290
     1
  9
$INSUNITS
 70
     4
  9
$HYPERLINKBASE
  1

  9
$STYLESHEET
  1

  9
$XEDIT
290
     1
  9
$CEPSNTYPE
380
     0
  9
$PSTYLEMODE
290
     1
  9
$FINGERPRINTGUID
  2
{65e7543e-47b7-4b82-bd41-c6a4af6a47ee}
  9
$VERSIONGUID
  2
{FAEB1C32-E019-11D5-929B-00C0DF256EC4}
  9
$EXTNAMES
290
     1
  9
$PSVPSCALE
 40
0.0
  9
$OLESTARTUP
290
     0
  0
ENDSEC
  0
SECTION
  2
CLASSES
  0
CLASS
  1
ACDBDICTIONARYWDFLT
  2
AcDbDictionaryWithDefault
  3
ObjectDBX Classes
 90
        0
280
     0
281
     0
  0
CLASS
  1
VISUALSTYLE
  2
AcDbVisualStyle
  3
ObjectDBX Classes
 90
     4095
280
     0
281
     0
  0
CLASS
  1
MATERIAL
  2
AcDbMaterial
  3
ObjectDBX Classes
 90
     1153
280
     0
281
     0
  0
CLASS
  1
SCALE
  2
AcDbScale
  3
ObjectDBX Classes
 90
     1153
280
     0
281
     0
  0
CLASS
  1
TABLESTYLE
  2
AcDbTableStyle
  3
ObjectDBX Classes
 90
     4095
280
     0
281
     0
  0
CLASS
  1
MLEADERSTYLE
  2
AcDbMLeaderStyle
  3
ACDB_MLEADERSTYLE_CLASS
 90
     4095
280
     0
281
     0
  0
CLASS
  1
SUN
  2
AcDbSun
  3
SCENEOE
 90
     1153
280
     0
281
     0
  0
CLASS
  1
ACDBPLACEHOLDER
  2
AcDbPlaceHolder
  3
ObjectDBX Classes
 90
        0
280
     0
281
     0
  0
CLASS
  1
LAYOUT
  2
AcDbLayout
  3
ObjectDBX Classes
 90
        0
280
     0
281
     0
  0
ENDSEC
  0
SECTION
  2
TABLES
  0
TABLE
  2
VPORT
  5
8
330
0
100
AcDbSymbolTable
 70
     1
  0
VPORT
  5
29
330
8
100
AcDbSymbolTableRecord
100
AcDbViewportTableRecord
  2
*Active
 70
     0
 10
0.0
 20
0.0
 11
1.0
 21
1.0
 12
139.7
 22
107.95
 13
0.0
 23
0.0
 14
10.0
 24
10.0
 15
10.0
 25
10.0
 16
0.0
 26
0.0
 36
1.0
 17
0.0
 27
0.0
 37
0.0
 40
215.9
 41
1.2941176471
 42
50.0
 43
0.0
 44
0.0
 50
0.0
 51
0.0
 71
     0
 72
  2000
 73
     1
 74
     3
 75
     0
 76
     0
 77
     0
 78
     0
281
     0
 65
     1
110
0.0
120
0.0
130
0.0
111
1.0
121
0.0
131
0.0
112
0.0
122
1.0
132
0.0
 79
     0
146
0.0
  0
ENDTAB
  0
TABLE
  2
LTYPE
  5
5
330
0
100
AcDbSymbolTable
 70
     6
  0
LTYPE
  5
14
330
5
100
AcDbSymbolTableRecord
100
AcDbLinetypeTableRecord
  2
ByBlock
 70
     0
  3

 72
    65
 73
     0
 40
0.0
  0
LTYPE
  5
15
330
5
100
AcDbSymbolTableRecord
100
AcDbLinetypeTableRecord
  2
ByLayer
 70
     0
  3

 72
    65
 73
     0
 40
0.0
  0
LTYPE
  5
16
330
5
100
AcDbSymbolTableRecord
100
AcDbLinetypeTableRecord
  2
Continuous
 70
     0
  3
Solid line
 72
    65
 73
     0
 40
0.0
  0
LTYPE
  5
6E
330
5
100
AcDbSymbolTableRecord
100
AcDbLinetypeTableRecord
  2
HIDDEN
 70
     0
  3
Hidden __ __ __ __ __ __ __ __ __ __ __ __ __ __
 72
    65
 73
     2
 40
1.905
 49
1.27
 74
     0
 49
-0.635
 74
     0
  0
LTYPE
  5
6F
330
5
100
AcDbSymbolTableRecord
100
AcDbLinetypeTableRecord
  2
PHANTOM
 70
     0
  3
Phantom ______  __  __  ______  __  __  ______
 72
    65
 73
     6
 40
12.7
 49
6.35
 74
     0
 49
-1.27
 74
     0
 49
1.27
 74
     0
 49
-1.27
 74
     0
 49
1.27
 74
     0
 49
-1.27
 74
     0
  0
LTYPE
  5
70
330
5
100
AcDbSymbolTableRecord
100
AcDbLinetypeTableRecord
  2
CENTER
 70
     0
  3
Center ____ _ ____ _ ____ _ ____ _ ____ _ ____
 72
    65
 73
     4
 40
10.16
 49
6.35
 74
     0
 49
-1.27
 74
     0
 49
1.27
 74
     0
 49
-1.27
 74
     0
  0
LTYPE
  5
71
330
5
100
AcDbSymbolTableRecord
100
AcDbLinetypeTableRecord
  2
CENTERX2
 70
     0
  3
Center (2x) ________  __  ________  __  _____
 72
    65
 73
     4
 40
20.32
 49
12.7
 74
     0
 49
-2.54
 74
     0
 49
2.54
 74
     0
 49
-2.54
 74
     0
  0
LTYPE
  5
72
330
5
100
AcDbSymbolTableRecord
100
AcDbLinetypeTableRecord
  2
DOT2
 70
     0
  3
Dot (.5x) ........................................
 72
    65
 73
     2
 40
0.635
 49
0.0
 74
     0
 49
-0.635
 74
     0
  0
ENDTAB
  0
TABLE
  2
LAYER
  5
2
330
0
100
AcDbSymbolTable
 70
    17
  0
LAYER
  5
10
330
2
100
AcDbSymbolTableRecord
100
AcDbLayerTableRecord
  2
0
 70
     0
 62
     7
  6
Continuous
370
    -3
390
F
  0
LAYER
  5
73
330
2
100
AcDbSymbolTableRecord
100
AcDbLayerTableRecord
  2
FORMAT
 70
     0
 62
     7
  6
Continuous
370
    -3
390
F
  0
LAYER
  5
74
330
2
100
AcDbSymbolTableRecord
100
AcDbLayerTableRecord
  2
YARDIMCI_GEOMETRI
 70
     0
 62
    -6
  6
Continuous
290
     0
370
    -3
390
F
  0
LAYER
  5
75
330
2
100
AcDbSymbolTableRecord
100
AcDbLayerTableRecord
  2
SAYFA_CERCEVESI
 70
     0
 62
     7
  6
Continuous
370
    25
390
F
  0
LAYER
  5
76
330
2
100
AcDbSymbolTableRecord
100
AcDbLayerTableRecord
  2
ANTET
 70
     0
 62
     7
  6
Continuous
370
    -3
390
F
  0
LAYER
  5
77
330
2
100
AcDbSymbolTableRecord
100
AcDbLayerTableRecord
  2
OLCU
 70
     0
 62
   150
  6
Continuous
370
    -3
390
F
  0
LAYER
  5
78
330
2
100
AcDbSymbolTableRecord
100
AcDbLayerTableRecord
  2
METIN
 70
     0
 62
    96
  6
Continuous
370
    -3
390
F
  0
LAYER
  5
79
330
2
100
AcDbSymbolTableRecord
100
AcDbLayerTableRecord
  2
BALON
 70
     0
 62
     5
  6
Continuous
370
    -3
390
F
  0
LAYER
  5
7A
330
2
100
AcDbSymbolTableRecord
100
AcDbLayerTableRecord
  2
VURGU
 70
     0
 62
     7
  6
Continuous
370
    -3
390
F
  0
LAYER
  5
7B
330
2
100
AcDbSymbolTableRecord
100
AcDbLayerTableRecord
  2
SILIK
 70
     0
 62
     7
  6
Continuous
370
    -3
390
F
  0
LAYER
  5
7C
330
2
100
AcDbSymbolTableRecord
100
AcDbLayerTableRecord
  2
MODEL
 70
     0
 62
     7
  6
Continuous
370
    -3
390
F
  0
LAYER
  5
7D
330
2
100
AcDbSymbolTableRecord
100
AcDbLayerTableRecord
  2
DETAYLANDıRMA
 70
     0
 62
   190
  6
Continuous
370
    -3
390
F
  0
LAYER
  5
7E
330
2
100
AcDbSymbolTableRecord
100
AcDbLayerTableRecord
  2
TOLERANS
 70
     0
 62
   230
  6
Continuous
370
    -3
390
F
  0
LAYER
  5
7F
330
2
100
AcDbSymbolTableRecord
100
AcDbLayerTableRecord
  2
MERKEZ_CIZGILERI
 70
     0
 62
    30
  6
Continuous
370
    -3
390
F
  0
LAYER
  5
80
330
2
100
AcDbSymbolTableRecord
100
AcDbLayerTableRecord
  2
KESIT-DETAY_CIZGILERI
 70
     0
 62
     7
  6
Continuous
370
    -3
390
F
  0
LAYER
  5
81
330
2
100
AcDbSymbolTableRecord
100
AcDbLayerTableRecord
  2
\U+041E\U+0421\U+0415\U+0412\U+042B\U+0415
 70
     0
 62
     7
  6
Continuous
370
    -3
390
F
  0
LAYER
  5
82
330
2
100
AcDbSymbolTableRecord
100
AcDbLayerTableRecord
  2
\U+0412\U+041E\U+0414\U+042F\U+041D\U+042B\U+0415_\U+0417\U+041D\U+0410\U+041A\U+0418
 70
     0
 62
    11
  6
Continuous
370
    -3
390
F
  0
ENDTAB
  0
TABLE
  2
STYLE
  5
3
330
0
100
AcDbSymbolTable
 70
     1
  0
STYLE
  5
11
330
3
100
AcDbSymbolTableRecord
100
AcDbTextStyleTableRecord
  2
Standard
 70
     0
 40
0.0
 41
1.0
 50
0.0
 71
     0
 42
3.5
  3
txt
  4

  0
ENDTAB
  0
TABLE
  2
VIEW
  5
6
330
0
100
AcDbSymbolTable
 70
     0
  0
ENDTAB
  0
TABLE
  2
UCS
  5
7
330
0
100
AcDbSymbolTable
 70
     0
  0
ENDTAB
  0
TABLE
  2
APPID
  5
9
330
0
100
AcDbSymbolTable
 70
     1
  0
APPID
  5
12
330
9
100
AcDbSymbolTableRecord
100
AcDbRegAppTableRecord
  2
ACAD
 70
     0
  0
ENDTAB
  0
TABLE
  2
DIMSTYLE
  5
A
330
0
100
AcDbSymbolTable
 70
     1
100
AcDbDimStyleTable
  0
DIMSTYLE
105
27
330
A
100
AcDbSymbolTableRecord
100
AcDbDimStyleTableRecord
  2
ISO-25
 70
     0
 41
2.5
 42
0.625
 43
3.75
 44
1.25
 73
     0
 74
     0
 77
     1
 78
     8
140
2.5
141
2.5
143
0.0393700787
147
0.625
171
     3
172
     1
178
     0
271
     2
272
     2
274
     3
278
    44
283
     0
284
     8
340
11
  0
ENDTAB
  0
TABLE
  2
BLOCK_RECORD
  5
1
330
0
100
AcDbSymbolTable
 70
     2
  0
BLOCK_RECORD
  5
1F
330
1
100
AcDbSymbolTableRecord
100
AcDbBlockTableRecord
  2
*Model_Space
340
22
  0
BLOCK_RECORD
  5
1B
330
1
100
AcDbSymbolTableRecord
100
AcDbBlockTableRecord
  2
*Paper_Space
340
1E
  0
BLOCK_RECORD
  5
23
330
1
100
AcDbSymbolTableRecord
100
AcDbBlockTableRecord
  2
*Paper_Space0
340
26
  0
BLOCK_RECORD
  5
88
330
1
100
AcDbSymbolTableRecord
100
AcDbBlockTableRecord
  2
SW_CENTERMARKSYMBOL_0
340
0
102
{BLKREFS
331
93
102
}
  0
ENDTAB
  0
ENDSEC
  0
SECTION
  2
BLOCKS
  0
BLOCK
  5
20
330
1F
100
AcDbEntity
  8
0
100
AcDbBlockBegin
  2
*Model_Space
 70
     0
 10
0.0
 20
0.0
 30
0.0
  3
*Model_Space
  1

  0
ENDBLK
  5
21
330
1F
100
AcDbEntity
  8
0
100
AcDbBlockEnd
  0
BLOCK
  5
1C
330
1B
100
AcDbEntity
 67
     1
  8
0
100
AcDbBlockBegin
  2
*Paper_Space
 70
     0
 10
0.0
 20
0.0
 30
0.0
  3
*Paper_Space
  1

  0
ENDBLK
  5
1D
330
1B
100
AcDbEntity
 67
     1
  8
0
100
AcDbBlockEnd
  0
BLOCK
  5
24
330
23
100
AcDbEntity
  8
0
100
AcDbBlockBegin
  2
*Paper_Space0
 70
     0
 10
0.0
 20
0.0
 30
0.0
  3
*Paper_Space0
  1

  0
ENDBLK
  5
25
330
23
100
AcDbEntity
  8
0
100
AcDbBlockEnd
  0
BLOCK
  5
89
330
88
100
AcDbEntity
  8
0
100
AcDbBlockBegin
  2
SW_CENTERMARKSYMBOL_0
 70
     0
 10
0.0
 20
0.0
 30
0.0
  3
SW_CENTERMARKSYMBOL_0
  1

  0
LINE
  5
8B
330
88
100
AcDbEntity
  8
FORMAT
 62
     0
100
AcDbLine
 10
0.0
 20
0.0
 30
0.0
 11
0.0
 21
2.5
 31
0.0
  0
LINE
  5
8C
330
88
100
AcDbEntity
  8
FORMAT
 62
     0
100
AcDbLine
 10
0.0
 20
0.0
 30
0.0
 11
-2.5
 21
0.0
 31
0.0
  0
LINE
  5
8D
330
88
100
AcDbEntity
  8
FORMAT
 62
     0
100
AcDbLine
 10
0.0
 20
0.0
 30
0.0
 11
0.0
 21
-2.5
 31
0.0
  0
LINE
  5
8E
330
88
100
AcDbEntity
  8
FORMAT
 62
     0
100
AcDbLine
 10
0.0
 20
0.0
 30
0.0
 11
2.5
 21
0.0
 31
0.0
  0
LINE
  5
8F
330
88
100
AcDbEntity
  8
FORMAT
 62
     0
100
AcDbLine
 10
0.0
 20
5.0
 30
0.0
 11
0.0
 21
40.0
 31
0.0
  0
LINE
  5
90
330
88
100
AcDbEntity
  8
FORMAT
 62
     0
100
AcDbLine
 10
-5.0
 20
0.0
 30
0.0
 11
-40.0
 21
0.0
 31
0.0
  0
LINE
  5
91
330
88
100
AcDbEntity
  8
FORMAT
 62
     0
100
AcDbLine
 10
0.0
 20
-5.0
 30
0.0
 11
0.0
 21
-40.0
 31
0.0
  0
LINE
  5
92
330
88
100
AcDbEntity
  8
FORMAT
 62
     0
100
AcDbLine
 10
5.0
 20
0.0
 30
0.0
 11
40.0
 21
0.0
 31
0.0
  0
ENDBLK
  5
8A
330
88
100
AcDbEntity
  8
0
100
AcDbBlockEnd
  0
ENDSEC
  0
SECTION
  2
ENTITIES
  0
CIRCLE
  5
83
330
1F
100
AcDbEntity
  8
0
  6
Continuous
 62
     7
370
    25
100
AcDbCircle
 10
139.395004093
 20
107.5851680021
 30
0.0
 40
37.50000000000001
  0
CIRCLE
  5
84
330
1F
100
AcDbEntity
  8
0
  6
Continuous
 62
     7
370
    25
100
AcDbCircle
 10
139.395004093
 20
107.5851680021
 30
0.0
 40
30.7
  0
CIRCLE
  5
85
330
1F
100
AcDbEntity
  8
0
  6
Continuous
 62
     7
370
    25
100
AcDbCircle
 10
139.395004093
 20
107.5851680021
 30
0.0
 40
30.42932315973761
  0
CIRCLE
  5
86
330
1F
100
AcDbEntity
  8
0
  6
Continuous
 62
     7
370
    25
100
AcDbCircle
 10
139.395004093
 20
107.5851680021
 30
0.0
 40
16.57067684026239
  0
CIRCLE
  5
87
330
1F
100
AcDbEntity
  8
0
  6
Continuous
 62
     7
370
    25
100
AcDbCircle
 10
139.395004093
 20
107.5851680021
 30
0.0
 40
16.29999999999998
  0
INSERT
  5
93
330
1F
100
AcDbEntity
  8
FORMAT
 62
     7
100
AcDbBlockReference
  2
SW_CENTERMARKSYMBOL_0
 10
139.395004093
 20
107.5851680021
 30
0.0
  0
ARC
  5
94
330
1F
100
AcDbEntity
  8
0
  6
Continuous
 62
     7
370
    25
100
AcDbCircle
 10
-66.389600786
 20
143.0851680021
 30
0.0
 40
2.000000000000028
100
AcDbArc
 50
71.0609957398
 51
90.0
  0
ARC
  5
95
330
1F
100
AcDbEntity
  8
0
  6
Continuous
 62
     7
370
    25
100
AcDbCircle
 10
-66.389600786
 20
72.0851680021
 30
0.0
 40
2.0
100
AcDbArc
 50
270.0
 51
288.9390042602
  0
LINE
  5
96
330
1F
100
AcDbEntity
  8
0
  6
Continuous
 62
     7
370
    25
100
AcDbLine
 10
-66.3896009426
 20
145.0851694922
 30
0.0
 11
-136.0560070823
 21
145.0851694922
 31
0.0
  0
LINE
  5
97
330
1F
100
AcDbEntity
  8
0
  6
Continuous
 62
     7
370
    25
100
AcDbLine
 10
-136.0560070823
 20
70.085166512
 30
0.0
 11
-66.3896009426
 21
70.085166512
 31
0.0
  0
LINE
  5
98
330
1F
100
AcDbEntity
  8
0
  6
Continuous
 62
     7
370
    25
100
AcDbLine
 10
-65.7404784213
 20
70.1934383492
 30
0.0
 11
-15.3715416889
 21
87.4768966119
 31
0.0
  0
LINE
  5
99
330
1F
100
AcDbEntity
  8
0
  6
Continuous
 62
     7
370
    25
100
AcDbLine
 10
-15.3715416889
 20
127.6934393923
 30
0.0
 11
-65.7404784213
 21
144.976897655
 31
0.0
  0
ARC
  5
9A
330
1F
100
AcDbEntity
  8
0
  6
Continuous
 62
     7
370
    25
100
AcDbCircle
 10
-14.7224189318
 20
129.5851680021
 30
0.0
 40
2.0
100
AcDbArc
 50
251.0609957398
 51
270.0
  0
ARC
  5
9B
330
1F
100
AcDbEntity
  8
0
  6
Continuous
 62
     7
370
    25
100
AcDbCircle
 10
-14.7224189318
 20
85.5851680021
 30
0.0
 40
2.000000000000014
100
AcDbArc
 50
90.0
 51
108.9390042602
  0
LINE
  5
9C
330
1F
100
AcDbEntity
  8
0
  6
Continuous
 62
     7
370
    25
100
AcDbLine
 10
33.9439872552
 20
127.5851675551
 30
0.0
 11
-14.7224191676
 21
127.5851675551
 31
0.0
  0
LINE
  5
9D
330
1F
100
AcDbEntity
  8
0
  6
Continuous
 62
     7
370
    25
100
AcDbLine
 10
-14.7224191676
 20
87.5851684491
 30
0.0
 11
33.9439872552
 21
87.5851684491
 31
0.0
  0
LINE
  5
9E
330
1F
100
AcDbEntity
  8
0
  6
Continuous
 62
     7
370
    25
100
AcDbLine
 10
-136.0560070823
 20
145.0851694922
 30
0.0
 11
-136.0560070823
 21
70.085166512
 31
0.0
  0
LINE
  5
9F
330
1F
100
AcDbEntity
  8
0
  6
Continuous
 62
     7
370
    25
100
AcDbLine
 10
33.9439872552
 20
127.5851675551
 30
0.0
 11
33.9439872552
 21
87.5851684491
 31
0.0
  0
LINE
  5
A0
330
1F
100
AcDbEntity
  8
0
  6
Continuous
 62
     1
370
    25
100
AcDbLine
 10
-65.7404784213
 20
144.976897655
 30
0.0
 11
-65.7404784213
 21
70.1934383492
 31
0.0
  0
LINE
  5
A1
330
1F
100
AcDbEntity
  8
0
  6
Continuous
 62
     1
370
    25
100
AcDbLine
 10
-66.3896009426
 20
145.0851694922
 30
0.0
 11
-66.3896009426
 21
70.085166512
 31
0.0
  0
LINE
  5
A2
330
1F
100
AcDbEntity
  8
0
  6
Continuous
 62
     1
370
    25
100
AcDbLine
 10
-15.3715416889
 20
127.6934393923
 30
0.0
 11
-15.3715416889
 21
87.4768966119
 31
0.0
  0
LINE
  5
A3
330
1F
100
AcDbEntity
  8
0
  6
Continuous
 62
     1
370
    25
100
AcDbLine
 10
-14.7224191676
 20
127.5851675551
 30
0.0
 11
-14.7224191676
 21
87.5851684491
 31
0.0
  0
ARC
  5
A4
330
1F
100
AcDbEntity
  8
0
  6
Continuous
 62
     7
370
    25
100
AcDbCircle
 10
326.9451296693
 20
72.0851680021
 30
0.0
 40
2.0
100
AcDbArc
 50
251.0609957398
 51
270.0
  0
ARC
  5
A5
330
1F
100
AcDbEntity
  8
0
  6
Continuous
 62
     7
370
    25
100
AcDbCircle
 10
326.9451296693
 20
143.0851680021
 30
0.0
 40
2.000000000000028
100
AcDbArc
 50
90.0
 51
108.9390042602
  0
LINE
  5
A6
330
1F
100
AcDbEntity
  8
0
  6
Continuous
 62
     7
370
    25
100
AcDbLine
 10
326.9451298259
 20
70.085166512
 30
0.0
 11
396.6115359656
 21
70.085166512
 31
0.0
  0
LINE
  5
A7
330
1F
100
AcDbEntity
  8
0
  6
Continuous
 62
     7
370
    25
100
AcDbLine
 10
396.6115359656
 20
145.0851694922
 30
0.0
 11
326.9451298259
 21
145.0851694922
 31
0.0
  0
LINE
  5
A8
330
1F
100
AcDbEntity
  8
0
  6
Continuous
 62
     7
370
    25
100
AcDbLine
 10
326.2960073046
 20
144.976897655
 30
0.0
 11
275.9270705722
 21
127.6934393923
 31
0.0
  0
LINE
  5
A9
330
1F
100
AcDbEntity
  8
0
  6
Continuous
 62
     7
370
    25
100
AcDbLine
 10
275.9270705722
 20
87.4768966119
 30
0.0
 11
326.2960073046
 21
70.1934383492
 31
0.0
  0
ARC
  5
AA
330
1F
100
AcDbEntity
  8
0
  6
Continuous
 62
     7
370
    25
100
AcDbCircle
 10
275.2779478151
 20
85.5851680021
 30
0.0
 40
2.000000000000014
100
AcDbArc
 50
71.0609957398
 51
90.0
  0
ARC
  5
AB
330
1F
100
AcDbEntity
  8
0
  6
Continuous
 62
     7
370
    25
100
AcDbCircle
 10
275.2779478151
 20
129.5851680021
 30
0.0
 40
2.0
100
AcDbArc
 50
270.0
 51
288.9390042602
  0
LINE
  5
AC
330
1F
100
AcDbEntity
  8
0
  6
Continuous
 62
     7
370
    25
100
AcDbLine
 10
226.6115416281
 20
87.5851684491
 30
0.0
 11
275.2779480509
 21
87.5851684491
 31
0.0
  0
LINE
  5
AD
330
1F
100
AcDbEntity
  8
0
  6
Continuous
 62
     7
370
    25
100
AcDbLine
 10
275.2779480509
 20
127.5851675551
 30
0.0
 11
226.6115416281
 21
127.5851675551
 31
0.0
  0
LINE
  5
AE
330
1F
100
AcDbEntity
  8
0
  6
Continuous
 62
     7
370
    25
100
AcDbLine
 10
396.6115359656
 20
107.5851680021
 30
0.0
 11
396.6115359656
 21
145.0851694922
 31
0.0
  0
LINE
  5
AF
330
1F
100
AcDbEntity
  8
0
  6
Continuous
 62
     7
370
    25
100
AcDbLine
 10
396.6115359656
 20
70.085166512
 30
0.0
 11
396.6115359656
 21
107.5851680021
 31
0.0
  0
LINE
  5
B0
330
1F
100
AcDbEntity
  8
0
  6
Continuous
 62
     7
370
    25
100
AcDbLine
 10
226.6115416281
 20
107.5851680021
 30
0.0
 11
226.6115416281
 21
127.5851675551
 31
0.0
  0
LINE
  5
B1
330
1F
100
AcDbEntity
  8
0
  6
Continuous
 62
     7
370
    25
100
AcDbLine
 10
226.6115416281
 20
87.5851684491
 30
0.0
 11
226.6115416281
 21
107.5851680021
 31
0.0
  0
LINE
  5
B2
330
1F
100
AcDbEntity
  8
0
  6
Continuous
 62
     1
370
    25
100
AcDbLine
 10
326.2960073046
 20
107.5851680021
 30
0.0
 11
326.2960073046
 21
144.976897655
 31
0.0
  0
LINE
  5
B3
330
1F
100
AcDbEntity
  8
0
  6
Continuous
 62
     1
370
    25
100
AcDbLine
 10
326.2960073046
 20
70.1934383492
 30
0.0
 11
326.2960073046
 21
107.5851680021
 31
0.0
  0
LINE
  5
B4
330
1F
100
AcDbEntity
  8
0
  6
Continuous
 62
     1
370
    25
100
AcDbLine
 10
326.9451298259
 20
107.5851680021
 30
0.0
 11
326.9451298259
 21
145.0851694922
 31
0.0
  0
LINE
  5
B5
330
1F
100
AcDbEntity
  8
0
  6
Continuous
 62
     1
370
    25
100
AcDbLine
 10
326.9451298259
 20
70.085166512
 30
0.0
 11
326.9451298259
 21
107.5851680021
 31
0.0
  0
LINE
  5
B6
330
1F
100
AcDbEntity
  8
0
  6
Continuous
 62
     1
370
    25
100
AcDbLine
 10
275.9270705722
 20
107.5851680021
 30
0.0
 11
275.9270705722
 21
127.6934393923
 31
0.0
  0
LINE
  5
B7
330
1F
100
AcDbEntity
  8
0
  6
Continuous
 62
     1
370
    25
100
AcDbLine
 10
275.9270705722
 20
87.4768966119
 30
0.0
 11
275.9270705722
 21
107.5851680021
 31
0.0
  0
LINE
  5
B8
330
1F
100
AcDbEntity
  8
0
  6
Continuous
 62
     1
370
    25
100
AcDbLine
 10
275.2779480509
 20
107.5851680021
 30
0.0
 11
275.2779480509
 21
127.5851675551
 31
0.0
  0
LINE
  5
B9
330
1F
100
AcDbEntity
  8
0
  6
Continuous
 62
     1
370
    25
100
AcDbLine
 10
275.2779480509
 20
87.5851684491
 30
0.0
 11
275.2779480509
 21
107.5851680021
 31
0.0
  0
ARC
  5
BA
330
1F
100
AcDbEntity
  8
0
  6
Continuous
 62
     7
370
    25
100
AcDbCircle
 10
174.895004093
 20
298.2301892995
 30
0.0
 40
2.0
100
AcDbArc
 50
341.0609957398
 51
0.0
  0
ARC
  5
BB
330
1F
100
AcDbEntity
  8
0
  6
Continuous
 62
     7
370
    25
100
AcDbCircle
 10
103.895004093
 20
298.2301892995
 30
0.0
 40
2.000000000000014
100
AcDbArc
 50
180.0
 51
198.9390042602
  0
LINE
  5
BC
330
1F
100
AcDbEntity
  8
0
  6
Continuous
 62
     7
370
    25
100
AcDbLine
 10
176.8950055832
 20
298.2301894561
 30
0.0
 11
176.8950055832
 21
367.8965955958
 31
0.0
  0
LINE
  5
BD
330
1F
100
AcDbEntity
  8
0
  6
Continuous
 62
     7
370
    25
100
AcDbLine
 10
101.8950026029
 20
367.8965955958
 30
0.0
 11
101.8950026029
 21
298.2301894561
 31
0.0
  0
LINE
  5
BE
330
1F
100
AcDbEntity
  8
0
  6
Continuous
 62
     7
370
    25
100
AcDbLine
 10
102.0032744402
 20
297.5810669348
 30
0.0
 11
119.2867327028
 21
247.2121302024
 31
0.0
  0
LINE
  5
BF
330
1F
100
AcDbEntity
  8
0
  6
Continuous
 62
     7
370
    25
100
AcDbLine
 10
159.5032754832
 20
247.2121302024
 30
0.0
 11
176.7867337459
 21
297.5810669348
 31
0.0
  0
ARC
  5
C0
330
1F
100
AcDbEntity
  8
0
  6
Continuous
 62
     7
370
    25
100
AcDbCircle
 10
161.395004093
 20
246.5630074452
 30
0.0
 40
2.000000000000028
100
AcDbArc
 50
161.0609957398
 51
180.0
  0
ARC
  5
C1
330
1F
100
AcDbEntity
  8
0
  6
Continuous
 62
     7
370
    25
100
AcDbCircle
 10
117.395004093
 20
246.5630074452
 30
0.0
 40
2.000000000000028
100
AcDbArc
 50
0.0
 51
18.9390042602
  0
LINE
  5
C2
330
1F
100
AcDbEntity
  8
0
  6
Continuous
 62
     7
370
    25
100
AcDbLine
 10
159.395003646
 20
197.8966012582
 30
0.0
 11
159.395003646
 21
246.5630076811
 31
0.0
  0
LINE
  5
C3
330
1F
100
AcDbEntity
  8
0
  6
Continuous
 62
     7
370
    25
100
AcDbLine
 10
119.3950045401
 20
246.5630076811
 30
0.0
 11
119.3950045401
 21
197.8966012582
 31
0.0
  0
LINE
  5
C4
330
1F
100
AcDbEntity
  8
0
  6
Continuous
 62
     7
370
    25
100
AcDbLine
 10
176.8950055832
 20
367.8965955958
 30
0.0
 11
101.8950026029
 21
367.8965955958
 31
0.0
  0
LINE
  5
C5
330
1F
100
AcDbEntity
  8
0
  6
Continuous
 62
     7
370
    25
100
AcDbLine
 10
159.395003646
 20
197.8966012582
 30
0.0
 11
119.3950045401
 21
197.8966012582
 31
0.0
  0
LINE
  5
C6
330
1F
100
AcDbEntity
  8
0
  6
Continuous
 62
     1
370
    25
100
AcDbLine
 10
176.7867337459
 20
297.5810669348
 30
0.0
 11
102.0032744402
 21
297.5810669348
 31
0.0
  0
LINE
  5
C7
330
1F
100
AcDbEntity
  8
0
  6
Continuous
 62
     1
370
    25
100
AcDbLine
 10
176.8950055832
 20
298.2301894561
 30
0.0
 11
101.8950026029
 21
298.2301894561
 31
0.0
  0
LINE
  5
C8
330
1F
100
AcDbEntity
  8
0
  6
Continuous
 62
     1
370
    25
100
AcDbLine
 10
159.5032754832
 20
247.2121302024
 30
0.0
 11
119.2867327028
 21
247.2121302024
 31
0.0
  0
LINE
  5
C9
330
1F
100
AcDbEntity
  8
0
  6
Continuous
 62
     1
370
    25
100
AcDbLine
 10
159.395003646
 20
246.5630076811
 30
0.0
 11
119.3950045401
 21
246.5630076811
 31
0.0
  0
ARC
  5
CA
330
1F
100
AcDbEntity
  8
0
  6
Continuous
 62
     7
370
    25
100
AcDbCircle
 10
103.895004093
 20
-78.7733588477
 30
0.0
 40
2.000000000000014
100
AcDbArc
 50
161.0609957398
 51
180.0
  0
ARC
  5
CB
330
1F
100
AcDbEntity
  8
0
  6
Continuous
 62
     7
370
    25
100
AcDbCircle
 10
174.895004093
 20
-78.7733588477
 30
0.0
 40
2.0
100
AcDbArc
 50
0.0
 51
18.9390042602
  0
LINE
  5
CC
330
1F
100
AcDbEntity
  8
0
  6
Continuous
 62
     7
370
    25
100
AcDbLine
 10
101.8950026029
 20
-78.7733590043
 30
0.0
 11
101.8950026029
 21
-148.439765144
 31
0.0
  0
LINE
  5
CD
330
1F
100
AcDbEntity
  8
0
  6
Continuous
 62
     7
370
    25
100
AcDbLine
 10
176.8950055832
 20
-148.439765144
 30
0.0
 11
176.8950055832
 21
-78.7733590043
 31
0.0
  0
LINE
  5
CE
330
1F
100
AcDbEntity
  8
0
  6
Continuous
 62
     7
370
    25
100
AcDbLine
 10
176.7867337459
 20
-78.124236483
 30
0.0
 11
159.5032754832
 21
-27.7552997506
 31
0.0
  0
LINE
  5
CF
330
1F
100
AcDbEntity
  8
0
  6
Continuous
 62
     7
370
    25
100
AcDbLine
 10
119.2867327028
 20
-27.7552997506
 30
0.0
 11
102.0032744402
 21
-78.124236483
 31
0.0
  0
ARC
  5
D0
330
1F
100
AcDbEntity
  8
0
  6
Continuous
 62
     7
370
    25
100
AcDbCircle
 10
117.395004093
 20
-27.1061769935
 30
0.0
 40
2.000000000000028
100
AcDbArc
 50
341.0609957398
 51
0.0
  0
ARC
  5
D1
330
1F
100
AcDbEntity
  8
0
  6
Continuous
 62
     7
370
    25
100
AcDbCircle
 10
161.395004093
 20
-27.1061769935
 30
0.0
 40
2.000000000000028
100
AcDbArc
 50
180.0
 51
198.9390042602
  0
LINE
  5
D2
330
1F
100
AcDbEntity
  8
0
  6
Continuous
 62
     7
370
    25
100
AcDbLine
 10
119.3950045401
 20
21.5602291935
 30
0.0
 11
119.3950045401
 21
-27.1061772293
 31
0.0
  0
LINE
  5
D3
330
1F
100
AcDbEntity
  8
0
  6
Continuous
 62
     7
370
    25
100
AcDbLine
 10
159.395003646
 20
-27.1061772293
 30
0.0
 11
159.395003646
 21
21.5602291935
 31
0.0
  0
LINE
  5
D4
330
1F
100
AcDbEntity
  8
0
  6
Continuous
 62
     7
370
    25
100
AcDbLine
 10
101.8950026029
 20
-148.439765144
 30
0.0
 11
176.8950055832
 21
-148.439765144
 31
0.0
  0
LINE
  5
D5
330
1F
100
AcDbEntity
  8
0
  6
Continuous
 62
     7
370
    25
100
AcDbLine
 10
119.3950045401
 20
21.5602291935
 30
0.0
 11
159.395003646
 21
21.5602291935
 31
0.0
  0
LINE
  5
D6
330
1F
100
AcDbEntity
  8
0
  6
Continuous
 62
     1
370
    25
100
AcDbLine
 10
102.0032744402
 20
-78.124236483
 30
0.0
 11
176.7867337459
 21
-78.124236483
 31
0.0
  0
LINE
  5
D7
330
1F
100
AcDbEntity
  8
0
  6
Continuous
 62
     1
370
    25
100
AcDbLine
 10
101.8950026029
 20
-78.7733590043
 30
0.0
 11
176.8950055832
 21
-78.7733590043
 31
0.0
  0
LINE
  5
D8
330
1F
100
AcDbEntity
  8
0
  6
Continuous
 62
     1
370
    25
100
AcDbLine
 10
119.2867327028
 20
-27.7552997506
 30
0.0
 11
159.5032754832
 21
-27.7552997506
 31
0.0
  0
LINE
  5
D9
330
1F
100
AcDbEntity
  8
0
  6
Continuous
 62
     1
370
    25
100
AcDbLine
 10
119.3950045401
 20
-27.1061772293
 30
0.0
 11
159.395003646
 21
-27.1061772293
 31
0.0
  0
LINE
  5
DA
330
1F
100
AcDbEntity
  8
0
  6
Continuous
 62
     7
370
    25
100
AcDbLine
 10
323.2744802183
 20
-12.1874459642
 30
0.0
 11
274.012892016
 21
16.2506635828
 31
0.0
  0
LINE
  5
DB
330
1F
100
AcDbEntity
  8
0
  6
Continuous
 62
     7
370
    25
100
AcDbLine
 10
236.5159393481
 20
-48.7030022209
 30
0.0
 11
285.7775275504
 21
-77.1411117679
 31
0.0
  0
SPLINE
  5
DC
330
1F
100
AcDbEntity
  8
0
  6
Continuous
 62
     7
370
    25
100
AcDbSpline
210
0.0
220
0.0
230
1.0
 70
     8
 71
     3
 72
    12
 73
     8
 74
     0
 42
0.000000001
 43
0.00000001
 40
0.0
 40
0.0
 40
0.0
 40
0.0
 40
0.1846885536159319
 40
0.4117233446909255
 40
0.637141882966642
 40
0.8612331424871827
 40
1.0
 40
1.0
 40
1.0
 40
1.0
 10
327.6920073145688
 20
-16.19560770809113
 30
0.0
 10
327.4672139910223
 20
-15.89645623253751
 30
0.0
 10
326.9660857011382
 20
-15.22956246098145
 30
0.0
 10
326.0935725936673
 20
-14.30698785778016
 30
0.0
 10
325.0967777265895
 20
-13.41980557695196
 30
0.0
 10
324.173919155288
 20
-12.72466717323328
 30
0.0
 10
323.5598250801275
 20
-12.36944501128702
 30
0.0
 10
323.3249787282697
 20
-12.23359835161962
 30
0.0
  0
SPLINE
  5
DD
330
1F
100
AcDbEntity
  8
0
  6
Continuous
 62
     7
370
    25
100
AcDbSpline
210
0.0
220
0.0
230
1.0
 70
     8
 71
     3
 72
    12
 73
     8
 74
     0
 42
0.000000001
 43
0.00000001
 40
0.0
 40
0.0
 40
0.0
 40
0.0
 40
0.1534748051286274
 40
0.3736850993200754
 40
0.5941410832978462
 40
0.8153594434169561
 40
1.0
 40
1.0
 40
1.0
 40
1.0
 10
285.8629789686724
 20
-77.17501448053582
 30
0.0
 10
286.1272012096191
 20
-77.32452157333584
 30
0.0
 10
286.7705375166305
 20
-77.68854596662442
 30
0.0
 10
287.8606574832044
 20
-78.1425504885844
 30
0.0
 10
289.118584256474
 20
-78.54836149687857
 30
0.0
 10
290.3498967722686
 20
-78.83316858778704
 30
0.0
 10
291.1769048063335
 20
-78.92973606724415
 30
0.0
 10
291.5531420095202
 20
-78.97366826245047
 30
0.0
  0
LINE
  5
DE
330
1F
100
AcDbEntity
  8
0
  6
Continuous
 62
     7
370
    25
100
AcDbLine
 10
291.3863814179
 20
-78.9636339408
 30
0.0
 11
333.288245445
 21
-83.7928359764
 31
0.0
  0
LINE
  5
DF
330
1F
100
AcDbEntity
  8
0
  6
Continuous
 62
     7
370
    25
100
AcDbLine
 10
352.7939511571
 20
-50.0043018763
 30
0.0
 11
327.6576286571
 21
-16.1331833893
 31
0.0
  0
LINE
  5
E0
330
1F
100
AcDbEntity
  8
0
  6
Continuous
 62
     7
370
    25
100
AcDbLine
 10
385.4717515067
 20
-68.299879776
 30
0.0
 11
352.0552986609
 21
-49.0089721667
 31
0.0
  0
LINE
  5
E1
330
1F
100
AcDbEntity
  8
0
  6
Continuous
 62
     7
370
    25
100
AcDbLine
 10
332.0569246072
 20
-83.6509256398
 30
0.0
 11
365.4733774529
 21
-102.9418332491
 31
0.0
  0
LWPOLYLINE
  5
E2
330
1F
100
AcDbEntity
  8
0
  6
Continuous
 62
     7
370
    25
100
AcDbPolyline
 90
      105
 70
   128
 43
0.0
 10
228.7479103339
 20
-31.533822024
 10
228.7962896476
 20
-29.6570866583
 10
228.9412458305
 20
-27.7313447191
 10
229.1822546812
 20
-25.7636205529
 10
229.51843375
 20
-23.7610958884
 10
229.94855551
 20
-21.7310775181
 10
230.4710526251
 20
-19.6809718234
 10
231.0840205848
 20
-17.6182592989
 10
231.7852177035
 20
-15.5504683169
 10
232.5720888285
 20
-13.4851416692
 10
233.4417600715
 20
-11.429818315
 10
234.3910611994
 20
-9.3919953607
 10
235.4165269509
 20
-7.3791105686
 10
236.5144154761
 20
-5.3985058568
 10
237.6807215074
 20
-3.4574105701
 10
238.9111868958
 20
-1.5629080209
 10
240.2013243193
 20
0.2780903647
 10
241.5464251844
 20
2.058864818
 10
242.9415820176
 20
3.7729214462
 10
244.3817029528
 20
5.4140021177
 10
245.8615334632
 20
6.9761228628
 10
247.375674801
 20
8.4535784349
 10
248.9186011192
 20
9.8409795719
 10
250.4846821917
 20
11.1332661115
 10
252.0682041569
 20
12.3257220091
 10
253.6633889453
 20
13.4139926357
 10
255.2644156821
 20
14.3941123434
 10
256.8654424188
 20
15.2624987594
 10
258.4606272072
 20
16.0159892865
 10
260.0441491724
 20
16.6518289336
 10
261.6102302449
 20
17.1677011124
 10
263.1531565631
 20
17.5617247839
 10
264.667297901
 20
17.8324595891
 10
266.1471284114
 20
17.9789147833
 10
267.5872493465
 20
18.0005623513
 10
268.9824061797
 20
17.8973195155
 10
270.3275070449
 20
17.6695654642
 10
271.6176444683
 20
17.3181280415
 10
272.8481098568
 20
16.8442905902
 10
274.014415888
 20
16.2497835842
 10
275.1123044132
 20
15.5367739821
 10
276.1377701647
 20
14.707866745
 10
277.0870712926
 20
13.766083543
 10
277.9567425357
 20
12.7148612333
 10
278.7436136606
 20
11.5580366484
 10
279.4448107793
 20
10.2998306272
 10
280.057778739
 20
8.9448358447
 10
280.5802758542
 20
7.4979924783
 10
281.0103976141
 20
5.9645821215
 10
281.3465766829
 20
4.350201548
 10
281.5875855336
 20
2.6607402777
 10
281.7325417165
 20
0.9023611849
 10
281.7809210302
 20
-0.9185166141
 10
281.7325417165
 20
-2.7952519798
 10
281.5875855336
 20
-4.720993919
 10
281.3465766829
 20
-6.6887180853
 10
281.0103976141
 20
-8.6912427498
 10
280.5802758542
 20
-10.72126112
 10
280.057778739
 20
-12.7713668148
 10
279.4448107793
 20
-14.8340793393
 10
278.7436136606
 20
-16.9018703212
 10
277.9567425357
 20
-18.967196969
 10
277.0870712926
 20
-21.0225203231
 10
276.1377701647
 20
-23.0603432774
 10
275.1123044132
 20
-25.0732280696
 10
274.014415888
 20
-27.0538327814
 10
272.8481098568
 20
-28.9949280681
 10
271.6176444683
 20
-30.8894306173
 10
270.3275070449
 20
-32.7304290029
 10
268.9824061797
 20
-34.5112034561
 10
267.5872493465
 20
-36.2252600844
 10
266.1471284114
 20
-37.8663407559
 10
264.667297901
 20
-39.428461501
 10
263.1531565631
 20
-40.9059170731
 10
261.6102302449
 20
-42.29331821
 10
260.0441491724
 20
-43.5856047497
 10
258.4606272072
 20
-44.7780606472
 10
256.8654424188
 20
-45.8663312738
 10
255.2644156821
 20
-46.8464509815
 10
253.6633889453
 20
-47.7148373975
 10
252.0682041569
 20
-48.4683279246
 10
250.4846821917
 20
-49.1041675717
 10
248.9186011192
 20
-49.6200397506
 10
247.375674801
 20
-50.014063422
 10
245.8615334632
 20
-50.2847982273
 10
244.3817029528
 20
-50.4312534215
 10
242.9415820176
 20
-50.4529009895
 10
241.5464251844
 20
-50.3496581537
 10
240.2013243193
 20
-50.1219041024
 10
238.9111868958
 20
-49.7704666797
 10
237.6807215074
 20
-49.2966292283
 10
236.5144154761
 20
-48.7021222224
 10
235.4165269509
 20
-47.9891126202
 10
234.3910611994
 20
-47.1602053831
 10
233.4417600715
 20
-46.2184221812
 10
232.5720888285
 20
-45.1671998714
 10
231.7852177035
 20
-44.0103752866
 10
231.0840205848
 20
-42.7521692653
 10
230.4710526251
 20
-41.3971744829
 10
229.94855551
 20
-39.9503311165
 10
229.51843375
 20
-38.4169207597
 10
229.1822546812
 20
-36.8025401861
 10
228.9412458305
 20
-35.1130789159
 10
228.7962896476
 20
-33.354699823
 10
228.7479103339
 20
-31.533822024
  0
LWPOLYLINE
  5
E3
330
1F
100
AcDbEntity
  8
0
  6
Continuous
 62
     7
370
    25
100
AcDbPolyline
 90
       95
 70
   128
 43
0.0
 10
233.5562374975
 20
-28.7580338368
 10
233.6047142758
 20
-27.0557041804
 10
233.7499286082
 20
-25.3050071346
 10
233.9912324868
 20
-23.5137617181
 10
234.3275472158
 20
-21.6899678991
 10
234.7573713136
 20
-19.8417716155
 10
235.2787844645
 20
-17.9774271313
 10
235.8894580551
 20
-16.1052612968
 10
236.5866643941
 20
-14.2336366664
 10
237.3672912
 20
-12.3709096748
 10
238.2278508213
 20
-10.5254002192
 10
239.1644999921
 20
-8.7053528777
 10
240.1730543206
 20
-6.9188958455
 10
241.2490106795
 20
-5.1740082372
 10
242.3875643281
 20
-3.4784797837
 10
243.5836286686
 20
-1.8398872601
 10
244.8318615879
 20
-0.265547339
 10
246.1266891653
 20
1.2375092628
 10
247.4623274044
 20
2.6625685808
 10
248.8328125262
 20
4.0032661002
 10
250.2320227009
 20
5.2536145108
 10
251.653708341
 20
6.4080287989
 10
253.0915205837
 20
7.4613533367
 10
254.5390373853
 20
8.40888303
 10
255.9897939788
 20
9.2463869847
 10
257.4373107804
 20
9.9701246165
 10
258.8751230231
 20
10.5768627587
 10
260.2968086633
 20
11.0638917716
 10
261.6960188379
 20
11.429037042
 10
263.0665039597
 20
11.6706679633
 10
264.4021421988
 20
11.7877037318
 10
265.6969697762
 20
11.7796232295
 10
266.9452026955
 20
11.6464623606
 10
268.141267036
 20
11.3888163302
 10
269.2798206846
 20
11.0078339385
 10
270.3557770435
 20
10.5052190997
 10
271.364331372
 20
9.8832141091
 10
272.3009805428
 20
9.1445988813
 10
273.1615401641
 20
8.2926704155
 10
273.94216697
 20
7.3312359495
 10
274.639373309
 20
6.2645886236
 10
275.2500468996
 20
5.097491509
 10
275.7714600505
 20
3.8351578347
 10
276.2012841483
 20
2.4832258911
 10
276.5375988773
 20
1.047732793
 10
276.7789027559
 20
-0.4649090955
 10
276.9241170883
 20
-2.0479452419
 10
276.9725938666
 20
-3.6943048014
 10
276.9241170883
 20
-5.3966344578
 10
276.7789027559
 20
-7.1473315035
 10
276.5375988773
 20
-8.9385769201
 10
276.2012841483
 20
-10.762370739
 10
275.7714600505
 20
-12.6105670227
 10
275.2500468996
 20
-14.4749115069
 10
274.639373309
 20
-16.3470773414
 10
273.94216697
 20
-18.2187019718
 10
273.1615401641
 20
-20.0814289634
 10
272.3009805428
 20
-21.9269384189
 10
271.364331372
 20
-23.7469857604
 10
270.3557770435
 20
-25.5334427926
 10
269.2798206846
 20
-27.278330401
 10
268.141267036
 20
-28.9738588544
 10
266.9452026955
 20
-30.612451378
 10
265.6969697762
 20
-32.1867912992
 10
264.4021421988
 20
-33.6898479009
 10
263.0665039597
 20
-35.1149072189
 10
261.6960188379
 20
-36.4556047384
 10
260.2968086633
 20
-37.7059531489
 10
258.8751230231
 20
-38.860367437
 10
257.4373107804
 20
-39.9136919749
 10
255.9897939788
 20
-40.8612216682
 10
254.5390373853
 20
-41.6987256228
 10
253.0915205837
 20
-42.4224632547
 10
251.653708341
 20
-43.0292013969
 10
250.2320227009
 20
-43.5162304098
 10
248.8328125262
 20
-43.8813756802
 10
247.4623274044
 20
-44.1230066015
 10
246.1266891653
 20
-44.24004237
 10
244.8318615879
 20
-44.2319618676
 10
243.5836286686
 20
-44.0988009988
 10
242.3875643281
 20
-43.8411549684
 10
241.2490106795
 20
-43.4601725767
 10
240.1730543206
 20
-42.9575577378
 10
239.1644999921
 20
-42.3355527473
 10
238.2278508213
 20
-41.5969375195
 10
237.3672912
 20
-40.7450090536
 10
236.5866643941
 20
-39.7835745877
 10
235.8894580551
 20
-38.7169272618
 10
235.2787844645
 20
-37.5498301472
 10
234.7573713136
 20
-36.2874964729
 10
234.3275472158
 20
-34.9355645293
 10
233.9912324868
 20
-33.5000714312
 10
233.7499286082
 20
-31.9874295427
 10
233.6047142758
 20
-30.4043933963
 10
233.5562374975
 20
-28.7580338368
  0
LWPOLYLINE
  5
E4
330
1F
100
AcDbEntity
  8
0
  6
Continuous
 62
     7
370
    25
100
AcDbPolyline
 90
        3
 70
   128
 43
0.0
 10
323.2744802183
 20
-12.1874459642
 10
323.2760040903
 20
-12.1883259628
 10
323.326750213
 20
-12.2177902964
  0
LINE
  5
E5
330
1F
100
AcDbEntity
  8
0
  6
Continuous
 62
     7
370
    25
100
AcDbLine
 10
285.8489150922
 20
-77.1820093166
 30
0.0
 11
285.7775275504
 21
-77.1411117679
 31
0.0
  0
LINE
  5
E6
330
1F
100
AcDbEntity
  8
0
  6
Continuous
 62
     7
370
    25
100
AcDbLine
 10
327.6576286571
 20
-16.1331833893
 30
0.0
 11
327.6953000371
 21
-16.184175961
 31
0.0
  0
LWPOLYLINE
  5
E7
330
1F
100
AcDbEntity
  8
0
  6
Continuous
 62
     7
370
    25
100
AcDbPolyline
 90
        3
 70
   128
 43
0.0
 10
291.5378664111
 20
-78.9803030529
 10
291.5329181077
 20
-78.9797831924
 10
291.3863814179
 20
-78.9636339408
  0
LINE
  5
E8
330
1F
100
AcDbEntity
  8
0
  6
Continuous
 62
     7
370
    25
100
AcDbLine
 10
352.7939511571
 20
-50.0043018763
 30
0.0
 11
352.8312010686
 21
-50.054914177
 31
0.0
  0
LWPOLYLINE
  5
E9
330
1F
100
AcDbEntity
  8
0
  6
Continuous
 62
     7
370
    25
100
AcDbPolyline
 90
       39
 70
   128
 43
0.0
 10
385.4717515067
 20
-68.299879776
 10
386.1780911994
 20
-68.7697953898
 10
386.9137927576
 20
-69.4169632098
 10
387.5692421064
 20
-70.1777895077
 10
388.1398419466
 20
-71.0469373036
 10
388.6215896447
 20
-72.0183114921
 10
389.0111068674
 20
-73.0850972484
 10
389.3056606549
 20
-74.2398125018
 10
389.5031844946
 20
-75.4743579384
 10
389.6022954431
 20
-76.7800728494
 10
389.6022954431
 20
-78.1478000554
 10
389.5031844946
 20
-79.5679460317
 10
389.3056606549
 20
-81.0305476394
 10
389.0111068674
 20
-82.525347457
 10
388.6215896447
 20
-84.0418602258
 10
388.1398419466
 20
-85.5694484673
 10
387.5692421064
 20
-87.0973968157
 10
386.9137927576
 20
-88.6149888234
 10
386.1780911994
 20
-90.1115795821
 10
385.3672984452
 20
-91.5766702449
 10
384.4871010267
 20
-92.9999855908
 10
383.5436734573
 20
-94.3715405608
 10
382.5436321336
 20
-95.6817178214
 10
381.4939931889
 20
-96.9213232742
 10
380.4021175043
 20
-98.0816664694
 10
379.2756649403
 20
-99.1546037585
 10
378.1225363847
 20
-100.1326128136
 10
376.9508202457
 20
-101.0088326418
 10
375.7687350147
 20
-101.7771149946
 10
374.5845724462
 20
-102.4320738992
 10
373.4066384123
 20
-102.96911524
 10
372.2431955679
 20
-103.384469857
 10
371.1024041851
 20
-103.6752261805
 10
369.9922664028
 20
-103.8393426434
 10
368.9205688512
 20
-103.8756701563
 10
367.8948291452
 20
-103.7839540993
 10
366.9222418835
 20
-103.5648365979
 10
366.0096289287
 20
-103.2198548074
 10
365.4733774529
 20
-102.9418332491
  0
LWPOLYLINE
  5
EA
330
1F
100
AcDbEntity
  8
0
  6
Continuous
 62
     1
370
    25
100
AcDbPolyline
 90
       53
 70
   128
 43
0.0
 10
323.326750213
 20
-12.2177902964
 10
324.3738926155
 20
-12.9013355649
 10
325.399358367
 20
-13.730242802
 10
326.3486594949
 20
-14.672026004
 10
327.218330738
 20
-15.7232483137
 10
328.0052018629
 20
-16.8800728986
 10
328.7063989816
 20
-18.1382789198
 10
329.3193669413
 20
-19.4932737023
 10
329.8418640565
 20
-20.9401170687
 10
330.2719858164
 20
-22.4735274255
 10
330.6081648852
 20
-24.087907999
 10
330.8491737359
 20
-25.7773692693
 10
330.9941299188
 20
-27.5357483621
 10
331.0425092325
 20
-29.3566261611
 10
330.9941299188
 20
-31.2333615268
 10
330.8491737359
 20
-33.1591034661
 10
330.6081648852
 20
-35.1268276323
 10
330.2719858164
 20
-37.1293522968
 10
329.8418640565
 20
-39.159370667
 10
329.3193669413
 20
-41.2094763618
 10
328.7063989816
 20
-43.2721888863
 10
328.0052018629
 20
-45.3399798682
 10
327.218330738
 20
-47.405306516
 10
326.3486594949
 20
-49.4606298701
 10
325.399358367
 20
-51.4984528244
 10
324.3738926155
 20
-53.5113376166
 10
323.2760040903
 20
-55.4919423284
 10
322.1096980591
 20
-57.4330376151
 10
320.8792326706
 20
-59.3275401643
 10
319.5890952472
 20
-61.1685385499
 10
318.243994382
 20
-62.9493130031
 10
316.8488375488
 20
-64.6633696314
 10
315.4087166137
 20
-66.3044503029
 10
313.9288861033
 20
-67.866571048
 10
312.4147447654
 20
-69.3440266201
 10
310.8718184472
 20
-70.731427757
 10
309.3057373747
 20
-72.0237142967
 10
307.7222154095
 20
-73.2161701942
 10
306.1270306211
 20
-74.3044408209
 10
304.5260038844
 20
-75.2845605285
 10
302.9249771476
 20
-76.1529469445
 10
301.3297923592
 20
-76.9064374717
 10
299.746270394
 20
-77.5422771188
 10
298.1801893216
 20
-78.0581492976
 10
296.6372630033
 20
-78.452172969
 10
295.1231216655
 20
-78.7229077743
 10
293.6432911551
 20
-78.8693629685
 10
292.2031702199
 20
-78.8910105365
 10
290.8080133867
 20
-78.7877677007
 10
289.4629125216
 20
-78.5600136494
 10
288.1727750981
 20
-78.2085762267
 10
286.9423097097
 20
-77.7347387753
 10
285.8489150922
 20
-77.1820093166
  0
LWPOLYLINE
  5
EB
330
1F
100
AcDbEntity
  8
0
  6
Continuous
 62
     1
370
    25
100
AcDbPolyline
 90
       45
 70
   128
 43
0.0
 10
327.6953000371
 20
-16.184175961
 10
327.9495746084
 20
-16.5407626189
 10
328.705694339
 20
-17.7490904699
 10
329.3735743739
 20
-19.0585287917
 10
329.9507254149
 20
-20.4642088674
 10
330.4350006068
 20
-21.9609007921
 10
330.8246034403
 20
-23.5430355276
 10
331.1180772148
 20
-25.2047303764
 10
331.3143366491
 20
-26.9398005823
 10
331.4126494416
 20
-28.741792408
 10
331.4126494416
 20
-30.6040029093
 10
331.3143366491
 20
-32.5195042691
 10
331.1180772148
 20
-34.4811707945
 10
330.8246034403
 20
-36.4817032511
 10
330.4350006068
 20
-38.5136638433
 10
329.9507254149
 20
-40.5694880031
 10
329.3735743739
 20
-42.6415324867
 10
328.705694339
 20
-44.7220886832
 10
327.9495746084
 20
-46.8034137929
 10
327.1080232158
 20
-48.877768088
 10
326.1841748331
 20
-50.9374316435
 10
325.1814631115
 20
-52.9747461597
 10
324.103619364
 20
-54.9821309322
 10
322.9546528097
 20
-56.9521170707
 10
321.7388387194
 20
-58.8773771558
 10
320.4606986598
 20
-60.7507503329
 10
319.1249873222
 20
-62.5652666452
 10
317.7366754006
 20
-64.3141766905
 10
316.300925884
 20
-65.9909729119
 10
314.8230802267
 20
-67.5894173532
 10
313.308636617
 20
-69.1035648512
 10
311.763228903
 20
-70.5277812848
 10
310.1926048613
 20
-71.8567713298
 10
308.602608745
 20
-73.0855885332
 10
306.9991549425
 20
-74.2096626879
 10
305.3882082617
 20
-75.2248112135
 10
303.7757615811
 20
-76.1272581424
 10
302.1678132946
 20
-76.9136471402
 10
300.5703453324
 20
-77.5810511527
 10
298.9893001531
 20
-78.1269887289
 10
297.430559547
 20
-78.5494271333
 10
295.8999216693
 20
-78.8467986453
 10
294.4030809542
 20
-79.0179939035
 10
292.9456053957
 20
-79.0623780638
 10
291.5378664111
 20
-78.9803030529
  0
LWPOLYLINE
  5
EC
330
1F
100
AcDbEntity
  8
0
  6
Continuous
 62
     1
370
    25
100
AcDbPolyline
 90
       34
 70
   128
 43
0.0
 10
352.8312010686
 20
-50.054914177
 10
353.1061881817
 20
-50.4564058308
 10
353.6223211228
 20
-51.3776082846
 10
354.0495057742
 20
-52.3952138773
 10
354.3848261009
 20
-53.5022698035
 10
354.625989051
 20
-54.6912151359
 10
354.7713495803
 20
-55.9539269306
 10
354.8199146036
 20
-57.2817796393
 10
354.7713495803
 20
-58.6657043304
 10
354.625989051
 20
-60.0962458199
 10
354.3848261009
 20
-61.5636319676
 10
354.0495057742
 20
-63.0578405023
 10
353.6223211228
 20
-64.5686629952
 10
353.1061881817
 20
-66.0857798582
 10
352.5046341155
 20
-67.5988270737
 10
351.8217669246
 20
-69.0974695758
 10
351.0622530556
 20
-70.57146893
 10
350.2312792049
 20
-72.010757855
 10
349.3345226848
 20
-73.4055029574
 10
348.3781086176
 20
-74.7461788736
 10
347.3685704236
 20
-76.0236253005
 10
346.3128043808
 20
-77.2291173339
 10
345.21802221
 20
-78.3544186968
 10
344.091702672
 20
-79.3918446627
 10
342.9415397069
 20
-80.3343056829
 10
341.7753899977
 20
-81.1753665545
 10
340.6012195456
 20
-81.9092818247
 10
339.4270490935
 20
-82.5310349022
 10
338.2608993843
 20
-83.0363818259
 10
337.1107364192
 20
-83.421870699
 10
335.9844168812
 20
-83.6848655913
 10
334.8896347105
 20
-83.8235728177
 10
333.8338686676
 20
-83.837042311
 10
333.288245445
 20
-83.7928359764
  0
LWPOLYLINE
  5
ED
330
1F
100
AcDbEntity
  8
0
  6
Continuous
 62
     1
370
    25
100
AcDbPolyline
 90
       36
 70
   128
 43
0.0
 10
352.340597264
 20
-49.393408948
 10
352.50144676
 20
-49.5511387214
 10
353.1568961088
 20
-50.3119650192
 10
353.727495949
 20
-51.1811128151
 10
354.2092436471
 20
-52.1524870037
 10
354.5987608698
 20
-53.21927276
 10
354.8933146573
 20
-54.3739880133
 10
355.0908384971
 20
-55.60853345
 10
355.1899494455
 20
-56.914248361
 10
355.1899494455
 20
-58.2819755669
 10
355.0908384971
 20
-59.7021215433
 10
354.8933146573
 20
-61.164723151
 10
354.5987608698
 20
-62.6595229685
 10
354.2092436471
 20
-64.1760357374
 10
353.727495949
 20
-65.7036239788
 10
353.1568961088
 20
-67.2315723273
 10
352.50144676
 20
-68.749164335
 10
351.7657452019
 20
-70.2457550936
 10
350.9549524476
 20
-71.7108457565
 10
350.0747550291
 20
-73.1341611024
 10
349.1313274597
 20
-74.5057160724
 10
348.1312861361
 20
-75.815893333
 10
347.0816471913
 20
-77.0554987857
 10
345.9897715067
 20
-78.215841981
 10
344.8633189427
 20
-79.2887792701
 10
343.7101903871
 20
-80.2667883251
 10
342.5384742481
 20
-81.1430081534
 10
341.3563890171
 20
-81.9112905061
 10
340.1722264486
 20
-82.5662494108
 10
338.9942924147
 20
-83.1032907516
 10
337.8308495704
 20
-83.5186453685
 10
336.6900581875
 20
-83.8094016921
 10
335.5799204052
 20
-83.9735181549
 10
334.5082228536
 20
-84.0098456679
 10
333.4824831476
 20
-83.9181296108
 10
332.5325109629
 20
-83.7057378641
  0
ENDSEC
  0
SECTION
  2
OBJECTS
  0
DICTIONARY
  5
C
330
0
100
AcDbDictionary
281
     1
  3
ACAD_GROUP
350
D
  3
ACAD_LAYOUT
350
1A
  3
ACAD_MLINESTYLE
350
17
  3
ACAD_PLOTSETTINGS
350
19
  3
ACAD_PLOTSTYLENAME
350
E
  3
ACAD_SCALELIST
350
47
  0
DICTIONARY
  5
D
102
{ACAD_REACTORS
330
C
102
}
330
C
100
AcDbDictionary
281
     1
  0
DICTIONARY
  5
1A
102
{ACAD_REACTORS
330
C
102
}
330
C
100
AcDbDictionary
281
     1
  3
Layout1
350
1E
  3
Layout2
350
26
  3
Model
350
22
  0
DICTIONARY
  5
17
102
{ACAD_REACTORS
330
C
102
}
330
C
100
AcDbDictionary
281
     1
  3
Standard
350
18
  0
DICTIONARY
  5
19
102
{ACAD_REACTORS
330
C
102
}
330
C
100
AcDbDictionary
281
     1
  0
ACDBDICTIONARYWDFLT
  5
E
102
{ACAD_REACTORS
330
C
102
}
330
C
100
AcDbDictionary
281
     1
  3
Normal
350
F
100
AcDbDictionaryWithDefault
340
F
  0
DICTIONARY
  5
47
102
{ACAD_REACTORS
330
C
102
}
330
C
100
AcDbDictionary
281
     1
  3
A0
350
48
  3
A1
350
49
  3
A2
350
4A
  3
A3
350
4B
  3
A4
350
4C
  3
A5
350
4D
  3
A6
350
4E
  3
A7
350
4F
  3
A8
350
50
  3
A9
350
51
  3
B0
350
52
  3
B1
350
53
  3
B2
350
54
  3
B3
350
55
  3
B4
350
56
  3
B5
350
57
  3
B6
350
58
  3
B7
350
59
  3
B8
350
5A
  3
B9
350
5B
  3
C0
350
5C
  3
C1
350
5D
  3
C2
350
5E
  3
C3
350
5F
  3
C4
350
60
  3
C5
350
61
  3
C6
350
62
  3
C7
350
63
  3
C8
350
64
  3
C9
350
65
  3
D0
350
66
  3
D1
350
67
  3
D2
350
68
  0
LAYOUT
  5
1E
102
{ACAD_REACTORS
330
1A
102
}
330
1A
100
AcDbPlotSettings
  1

  2
none_device
  4

  6

 40
0.0
 41
0.0
 42
0.0
 43
0.0
 44
0.0
 45
0.0
 46
0.0
 47
0.0
 48
0.0
 49
0.0
140
0.0
141
0.0
142
1.0
143
1.0
 70
   688
 72
     1
 73
     0
 74
     5
  7

 75
    16
147
1.0
148
0.0
149
0.0
100
AcDbLayout
  1
Layout1
 70
     1
 71
     1
 10
0.0
 20
0.0
 11
420.0
 21
297.0
 12
0.0
 22
0.0
 32
0.0
 14
1.0000000000E+20
 24
1.0000000000E+20
 34
1.0000000000E+20
 15
-1.0000000000E+20
 25
-1.0000000000E+20
 35
-1.0000000000E+20
146
0.0
 13
0.0
 23
0.0
 33
0.0
 16
1.0
 26
0.0
 36
0.0
 17
0.0
 27
1.0
 37
0.0
 76
     0
330
1B
  0
LAYOUT
  5
26
102
{ACAD_REACTORS
330
1A
102
}
330
1A
100
AcDbPlotSettings
  1

  2
none_device
  4

  6

 40
0.0
 41
0.0
 42
0.0
 43
0.0
 44
0.0
 45
0.0
 46
0.0
 47
0.0
 48
0.0
 49
0.0
140
0.0
141
0.0
142
1.0
143
1.0
 70
   688
 72
     1
 73
     0
 74
     5
  7

 75
    16
147
1.0
148
0.0
149
0.0
100
AcDbLayout
  1
Layout2
 70
     1
 71
     2
 10
0.0
 20
0.0
 11
0.0
 21
0.0
 12
0.0
 22
0.0
 32
0.0
 14
0.0
 24
0.0
 34
0.0
 15
0.0
 25
0.0
 35
0.0
146
0.0
 13
0.0
 23
0.0
 33
0.0
 16
1.0
 26
0.0
 36
0.0
 17
0.0
 27
1.0
 37
0.0
 76
     0
330
23
  0
LAYOUT
  5
22
102
{ACAD_REACTORS
330
1A
102
}
330
1A
100
AcDbPlotSettings
  1

  2
none_device
  4
Letter_(8.50_x_11.00_Inches)
  6

 40
6.35
 41
6.35
 42
6.35000508
 43
6.35000508
 44
215.9
 45
279.4
 46
0.0
 47
0.0
 48
0.0
 49
0.0
140
0.0
141
0.0
142
1.0
143
1.0
 70
  1712
 72
     1
 73
     0
 74
     0
  7

 75
     0
147
1.0
148
0.0
149
0.0
100
AcDbLayout
  1
Model
 70
     1
 71
     0
 10
0.0
 20
0.0
 11
279.4
 21
215.9
 12
0.0
 22
0.0
 32
0.0
 14
0.0
 24
0.0
 34
0.0
 15
279.4
 25
215.9
 35
0.0
146
0.0
 13
0.0
 23
0.0
 33
0.0
 16
1.0
 26
0.0
 36
0.0
 17
0.0
 27
1.0
 37
0.0
 76
     0
330
1F
331
29
  0
MLINESTYLE
  5
18
102
{ACAD_REACTORS
330
17
102
}
330
17
100
AcDbMlineStyle
  2
Standard
 70
     0
  3

 62
   256
 51
90.0
 52
90.0
 71
     2
 49
0.5
 62
   256
  6
BYLAYER
 49
-0.5
 62
   256
  6
BYLAYER
  0
ACDBPLACEHOLDER
  5
F
102
{ACAD_REACTORS
330
E
102
}
330
E
  0
SCALE
  5
48
102
{ACAD_REACTORS
330
47
102
}
330
47
100
AcDbScale
 70
     0
300
1:1
140
1.0
141
1.0
290
     1
  0
SCALE
  5
49
102
{ACAD_REACTORS
330
47
102
}
330
47
100
AcDbScale
 70
     0
300
1:2
140
1.0
141
2.0
290
     0
  0
SCALE
  5
4A
102
{ACAD_REACTORS
330
47
102
}
330
47
100
AcDbScale
 70
     0
300
1:4
140
1.0
141
4.0
290
     0
  0
SCALE
  5
4B
102
{ACAD_REACTORS
330
47
102
}
330
47
100
AcDbScale
 70
     0
300
1:5
140
1.0
141
5.0
290
     0
  0
SCALE
  5
4C
102
{ACAD_REACTORS
330
47
102
}
330
47
100
AcDbScale
 70
     0
300
1:8
140
1.0
141
8.0
290
     0
  0
SCALE
  5
4D
102
{ACAD_REACTORS
330
47
102
}
330
47
100
AcDbScale
 70
     0
300
1:10
140
1.0
141
10.0
290
     0
  0
SCALE
  5
4E
102
{ACAD_REACTORS
330
47
102
}
330
47
100
AcDbScale
 70
     0
300
1:16
140
1.0
141
16.0
290
     0
  0
SCALE
  5
4F
102
{ACAD_REACTORS
330
47
102
}
330
47
100
AcDbScale
 70
     0
300
1:20
140
1.0
141
20.0
290
     0
  0
SCALE
  5
50
102
{ACAD_REACTORS
330
47
102
}
330
47
100
AcDbScale
 70
     0
300
1:30
140
1.0
141
30.0
290
     0
  0
SCALE
  5
51
102
{ACAD_REACTORS
330
47
102
}
330
47
100
AcDbScale
 70
     0
300
1:40
140
1.0
141
40.0
290
     0
  0
SCALE
  5
52
102
{ACAD_REACTORS
330
47
102
}
330
47
100
AcDbScale
 70
     0
300
1:50
140
1.0
141
50.0
290
     0
  0
SCALE
  5
53
102
{ACAD_REACTORS
330
47
102
}
330
47
100
AcDbScale
 70
     0
300
1:100
140
1.0
141
100.0
290
     0
  0
SCALE
  5
54
102
{ACAD_REACTORS
330
47
102
}
330
47
100
AcDbScale
 70
     0
300
2:1
140
2.0
141
1.0
290
     0
  0
SCALE
  5
55
102
{ACAD_REACTORS
330
47
102
}
330
47
100
AcDbScale
 70
     0
300
4:1
140
4.0
141
1.0
290
     0
  0
SCALE
  5
56
102
{ACAD_REACTORS
330
47
102
}
330
47
100
AcDbScale
 70
     0
300
8:1
140
8.0
141
1.0
290
     0
  0
SCALE
  5
57
102
{ACAD_REACTORS
330
47
102
}
330
47
100
AcDbScale
 70
     0
300
10:1
140
10.0
141
1.0
290
     0
  0
SCALE
  5
58
102
{ACAD_REACTORS
330
47
102
}
330
47
100
AcDbScale
 70
     0
300
100:1
140
100.0
141
1.0
290
     0
  0
SCALE
  5
59
102
{ACAD_REACTORS
330
47
102
}
330
47
100
AcDbScale
 70
     0
300
1/128" = 1'-0"
140
0.0078125
141
12.0
290
     0
  0
SCALE
  5
5A
102
{ACAD_REACTORS
330
47
102
}
330
47
100
AcDbScale
 70
     0
300
1/64" = 1'-0"
140
0.015625
141
12.0
290
     0
  0
SCALE
  5
5B
102
{ACAD_REACTORS
330
47
102
}
330
47
100
AcDbScale
 70
     0
300
1/32" = 1'-0"
140
0.03125
141
12.0
290
     0
  0
SCALE
  5
5C
102
{ACAD_REACTORS
330
47
102
}
330
47
100
AcDbScale
 70
     0
300
1/16" = 1'-0"
140
0.0625
141
12.0
290
     0
  0
SCALE
  5
5D
102
{ACAD_REACTORS
330
47
102
}
330
47
100
AcDbScale
 70
     0
300
3/32" = 1'-0"
140
0.09375
141
12.0
290
     0
  0
SCALE
  5
5E
102
{ACAD_REACTORS
330
47
102
}
330
47
100
AcDbScale
 70
     0
300
1/8" = 1'-0"
140
0.125
141
12.0
290
     0
  0
SCALE
  5
5F
102
{ACAD_REACTORS
330
47
102
}
330
47
100
AcDbScale
 70
     0
300
3/16" = 1'-0"
140
0.1875
141
12.0
290
     0
  0
SCALE
  5
60
102
{ACAD_REACTORS
330
47
102
}
330
47
100
AcDbScale
 70
     0
300
1/4" = 1'-0"
140
0.25
141
12.0
290
     0
  0
SCALE
  5
61
102
{ACAD_REACTORS
330
47
102
}
330
47
100
AcDbScale
 70
     0
300
3/8" = 1'-0"
140
0.375
141
12.0
290
     0
  0
SCALE
  5
62
102
{ACAD_REACTORS
330
47
102
}
330
47
100
AcDbScale
 70
     0
300
1/2" = 1'-0"
140
0.5
141
12.0
290
     0
  0
SCALE
  5
63
102
{ACAD_REACTORS
330
47
102
}
330
47
100
AcDbScale
 70
     0
300
3/4" = 1'-0"
140
0.75
141
12.0
290
     0
  0
SCALE
  5
64
102
{ACAD_REACTORS
330
47
102
}
330
47
100
AcDbScale
 70
     0
300
1" = 1'-0"
140
1.0
141
12.0
290
     0
  0
SCALE
  5
65
102
{ACAD_REACTORS
330
47
102
}
330
47
100
AcDbScale
 70
     0
300
1-1/2" = 1'-0"
140
1.5
141
12.0
290
     0
  0
SCALE
  5
66
102
{ACAD_REACTORS
330
47
102
}
330
47
100
AcDbScale
 70
     0
300
3" = 1'-0"
140
3.0
141
12.0
290
     0
  0
SCALE
  5
67
102
{ACAD_REACTORS
330
47
102
}
330
47
100
AcDbScale
 70
     0
300
6" = 1'-0"
140
6.0
141
12.0
290
     0
  0
SCALE
  5
68
102
{ACAD_REACTORS
330
47
102
}
330
47
100
AcDbScale
 70
     0
300
1'-0" = 1'-0"
140
12.0
141
12.0
290
     0
  0
ENDSEC
  0
EOF
